Chris Shofner

www.chrisshofner.com

KROGHETTO COWBOY - RHYTHM

Fig. 1 – Chords

E7#9 G7#9 C#/F#7#9 C/F7#9
e ----- e ----- e ----- e -----
B --8-- B --11- B --10-- B --9--
G --7-- G --10- G --9-- G --8--
D --6-- D --9-- D --8-- D --7--
A --7-- A --10- A --X-- A --X--
E ----- E ----- E --9-- E --8--

Fig. 2 - Intro/Main Riff

e -------------------------------
B --8-8-8-8-8--/11--10-10-10-11--
G --7-7-7-7-7--/10--9--9--9--8---
D --6-6-6-6-6--/9---8--8--8--7---
A --7-7-7-7-7--/10--X--X--X--X---
E ------------------9--9--9--8---

Fig. 3 – Bridge Chords

G/C7#9 G#/C#7#9 A/D7#9 A#/D#7#9 B/E7#9
e ----- e ----- e ----- e ----- e -----
B --4-- B --5-- B --6-- B --7-- B --8--
G --3-- G --4-- G --5-- G --6-- G --7--
D --2-- D --3-- D --4-- D --5-- D --6--
A --X-- A --X-- A --X-- A --X-- A --X--
E --3-- E --4-- E --5-- E --6-- E --7--

Fig. 4 – Bridge Rhythm

e -----------------
B --4-5-6-6-7-7-8--
G --3-4-5-5-6-6-7--
D --2-3-4-4-5-5-6--
A --X-X-X-X-X-X-X--
E --3-4-5-5-6-6-7--

KROGHETTO COWBOY - MELODIES

Fig. 1 - Melody

e --------------------15\--------------------------------
B --14/15\14/15\14--------13-13-13-12—14/15\14/15\14-12--
G -----------------14------------------------------------
D -------------------------------------------------------
A -------------------------------------------------------
E -------------------------------------------------------

e ----12\-12-12-12-11--
B ---------------------
G -12-----9--9--9--8---
D ---------------------
A ---------------------
E ---------------------

Fig. 2 – Bridge Melody

e --15-14-13-12-----------
B --------------12-13-14--
G --12-11-10--9-----------
D --------------9--10-11--
A ------------------------
E ------------------------

KROGHETTO COWBOY - SOLO EXCERPT (:50-1:05)

Fig. 1

e -------------------15\--
B --14/15\14/15\14\-------
G -------------------12\--
D --11/12\11/12\11\-------
A ------------------------
E ------------------------

Fig. 2

e --15b(17)r--15p12-------12------------------------------
B ------------------15-12----15p12----15p12-------12------
G ---------------------------------14-------14p12----14p12
D --------------------------------------------------------
A --------------------------------------------------------
E --------------------------------------------------------

e --------------------------------------------------------
B --------------------------------------------------------
G -----14p12-------12-------------------------------------
D --14-------14-12----14p12----14p12-------12-------------
A --------------------------14-------14-12----14-12-10----
E -----------------------------------------------------12-

Fig. 3 – Repeat Fig. 2

Fig. 4

e -----15-17-17/18\17\15/17-/15------
B --17--------------------------17\--
G -----12-14-14/15\14\12/14-/12------
D --14--------------------------14\--
A -----------------------------------
E -----------------------------------

You are viewing the text version of this site.

To view the full version please install the Adobe Flash Player and ensure your web browser has JavaScript enabled.

Need help? check the requirements page.


Get Flash Player