Chris Shofner

www.chrisshofner.com

Chicken Pickin’ Guitar Solo TAB

bpm = 125

Fig. 1 – Chords

  D G A
e --2-- --3-- --0--
B --3-- --3-- --2--
G --2-- --0-- --2--
D --0-- --0-- --2--
A ----- --2-- --0--
E ----- --3-- -----

Fig. 2 - A

e ---------------
B ---------------
G ----2---4---6--
D --4---6---7----
A ---------------
E ---------------

Fig. 3 - D

e -----------------------------
B -----------------------------
G --7-7p5---7p5---7-7p5---7p5--
D --7-7p5-X-7p5-x-7-7p5-X-7p5--
A -----------------------------
E -----------------------------

Fig. 3.1 – G

e -------------------------------------
B -------------------------------------
G --5p3p0------------------------------
D --------5p3p0-------------------0-2--
A --------------4p3p0-0-1/2-----2------
E --------------------------3-3--------

Fig. 4 - A

e --0-------0------------
B ----(2)r0---0b(2)0b(2)--
G ------------------------
D ------------------------
A ------------------------
E ------------------------

* Bending behind the nut: Start with B string already
  bent up 1 step. Open B string should sound a C# note.

Fig. 5 - A

e -----------------------------------
B -----------------------------------
G --4p2p0---0---------------------2--
D --------4---4p2p0---0-----0h2h4----
A ------------------4---3h4----------
E -----------------------------------

* Video has minor discrepancy. Tab is correct.
 
Fig. 6 - D

e -----------14----12-10-----------10-----------------
B -----------15----13-10-----------10----12----10-----
G -----14-16----14-------13p12p10--------12----10h11--
D --16--------------------------------12----12--------
A ----------------------------------------------------
E ----------------------------------------------------

Fig. 7 - G

e -------------------------------------------
B --------15------13-------------------------
G --14b16----(16)----(16)r14-12-11-11-10-10--
D -------------------------------------------
A -------------------------------------------
E -------------------------------------------

* The very end of the lick was omitted from the video.
  Tab is correct.

Fig. 8 – A

e ----------9b10---------9b10---------9b10---------9b10--
B --10-8-10-----10-8-10-------10-8-10------10-8-10-------
G -------------------------------------------------------
D -------------------------------------------------------
A -------------------------------------------------------
E -------------------------------------------------------

Fig. 9 – D

e -------10-------------------
B ---------------10-----------
G --9b11----(11)----(11)r9-7--
D ----------------------------
A ----------------------------
E ----------------------------

Fig. 10 - Solo
 
e ------------------------------------------------------
B ------------------------------------------------------
G ----2---4---6--7-7p5---7p5---7-7p5---7p5--5p3p0-------
D --4---6---7----7-7p5-X-7p5-x-7-7p5-X-7p5--------5p3p0-
A ------------------------------------------------------
E ------------------------------------------------------

-------------------------0-------0-----------------------
---------------------------(2)r0---0b(2)0b(2)------------
-----------------------------------------------4p2p0---0-
--------------------0-2—-----------------------------4---
-4p3p0-0-1/2-----2---------------------------------------
-------------3-3-----------------------------------------

-----------------------------------14----12-10----------
-----------------------------------15----13-10----------
----------------------2------14-16----14-------13p12p10-
-4p2p0----0-----0h2h4-----16----------------------------
--------4---3h4-----------------------------------------
--------------------------------------------------------

-10--------------------------------------------------------
-10----12----10----------15------13------------------------
-------12----10h11-14b16----(16)----(16)r14-12-11-11-10-10-
----12----12-----------------------------------------------
-----------------------------------------------------------
-----------------------------------------------------------

----------9b10---------9b10---------9b10---------9b10--
--10-8-10-----10-8-10-------10-8-10------10-8-10-------
-------------------------------------------------------
-------------------------------------------------------
-------------------------------------------------------
-------------------------------------------------------

-------10-------------------
---------------10-----------
--9b11----(11)----(11)r9-7--
----------------------------
----------------------------
----------------------------

KEY:

b = bend

r = release

p = pull-off

h = hammer-on

/ = slide

() = bend to this note

© Copyright 2007, 2011 Chris Shofner

You are viewing the text version of this site.

To view the full version please install the Adobe Flash Player and ensure your web browser has JavaScript enabled.

Need help? check the requirements page.


Get Flash Player